5 Seconds Of Summer “Amnesia” Guitar Chords/Tab

5 Seconds Of Summer “Amnesia” Guitar Chords/Tab

Hi, this was requested :) The requester wanted this song done in a higher key than what can be found around the web,  so here’s a capo 5 version that sounds great!  I’ve also figured out a detailed picking pattern that will play along.  It’s at the bottom ↓   Check it out :)

Play along to get the timing/strumming /picking down-

     EADGBe
F#m [244222]


STANDARD TUNING w/
CAPO ON 5

(*= ONE STRUM)

Intro-
 A D x2



  A                                  D
I drove by all the places we used to hang out getting wasted
  A                                   D
I thought about our last kiss, how it felt the way you tasted
    F#m                                     D
And even though your friends tell me you're doing fine


        A                             D
Are you somewhere feeling lonely even though he's right beside you?
        A                                      D
When he says those words that hurt you, do you read the ones I wrote you?
    F#m                             D
Sometimes I start to wonder, was it just a lie?
   F#m                             D
If what we had was real, how could you be fine?


D
'Cause I'm not fine at all


    A                                   E
I remember the day you told me you were leaving
    F#m                                  D
I remember the make-up running down your face
        A                                 E
And the dreams you left behind you didn't need them
     F#m                       D
Like every single wish we ever made
  A                                E
I wish that I could wake up with amnesia
    F#m                            D
And forget about the stupid little things
         A                               E
Like the way it felt to fall asleep next to you
        F#m                    D
And the memories I never can escape
                       A  D
'Cause I'm not fine at all


A                                           D
The pictures that you sent me they're still living in my phone
       A                              D
I'll admit I like to see them, I'll admit I feel alone
    F#m                                D
And all my friends keep asking why I'm not around


   A                                    D
It hurts to know you're happy, yeah, it hurts that you've moved on
     A                                     D
It's hard to hear your name when I haven't seen you in so long
     F#m                            D
It's like we never happened, was it just a lie?
   F#m                             D*
If what we had was real, how could you be fine?
 

D
 'Cause I'm not fine at all


    A                                   E
I remember the day you told me you were leaving
    F#m                                  D
I remember the make-up running down your face
        A                                 E
And the dreams you left behind you didn't need them
     F#m                       D
Like every single wish we ever made
  A                                E
I wish that I could wake up with amnesia
    F#m                            D
And forget about the stupid little things
         A                               E
Like the way it felt to fall asleep next to you
        F#m                    D
And the memories I never can escape



   E*              E*               F#m*    F#m*
If today I woke up with you right beside me
     D*              D*                A*   A*
Like all of this was just some twisted dream
    E*              E*          F#m*       F#m*
I'd hold you closer than I ever did before
          D*          D*  
And you'd never slip away
          D
And you'd never hear me say


    A                                   E
I remember the day you told me you were leaving
    F#m                                  D
I remember the make-up running down your face
        A                                 E
And the dreams you left behind you didn't need them
     F#m                       D
Like every single wish we ever made
  A                                E
I wish that I could wake up with amnesia
    F#m                            D
And forget about the stupid little things
         A                               E
Like the way it felt to fall asleep next to you
        F#m                    D
And the memories I never can escape


                       A     D
'Cause I'm not fine at all
                           A    D
No, I'm really not fine at all
                        F#m    D
Tell me this is just a dream
                              A *
'Cause I'm really not fine at all




Have fun!
LLG♥
 (Click/tap anywhere to stop scrolling)

Send in your Song Request for guitar chords today!

********************  TAB/PICKING PATTERN  *******************


This is a basic picking pattern that I came up with.  It may need 
some tweeking but it's real close :)

I did a harder and easier version of the intro.  I have troubles
getting that hammer pull off to sound good so I use the easier
one, but I'm practicing the harder one!

*When picking this song it's not really a D chord shape your using.
It's an Aadd11.  (When strumming you can't hear the difference, but
it'a very apparent when picking.) So don't be confused by the Aadd11 
chord [xx0220]  :)




 Harder Intro- (More of what they're actually doing)

     A                 *Aadd11
e|------------------------------------------------|
B|--------0----------0---------2h3p2--------------|
G|----2---------2---------2----------2---2--------|
D|------2---------2-----0---0----------0----------| x2
A|--0--------0------------------------------------|
E|------------------------------------------------|



Easier Intro- (Not what they're doing but plays along okay)

    A                   Aadd11
e|------------------------------------------------|
B|--------0----------0----------2-----------------|
G|----2---------2---------2---2---2---2-----------| x2
D|------2---------2-----0---0-------0-------------|
A|--0--------0------------------------------------|
E|------------------------------------------------|




Verses- (use either the harder or eisier versions)

     A                   Aadd11
e|------------------------------------------------|
B|--------0----------0----------2-----------------|
G|----2---------2---------2---2---2---2-----------| x2
D|------2---------2-----0---0-------0-------------|
A|--0--------0------------------------------------|
E|------------------------------------------------|
  


     F#m              Aadd11
e|------------------------------|
B|----------------------2-2-----|
G|-----2---2---2---2------------| *In the 2nd part of each verse this part 
D|---4---4---4---4----0---------|  is played 2x's
A|------------------------------|
E|------------------------------|



    A                   Aadd11            F#m              Aadd11
e|--------------------------------------------------------------------|
B|--------0----------0----------2-----------------------------2-2-----|
G|----2---------2---------2---2---2---2------2---2---2---2------------|
D|------2---------2-----0---0-------0------4---4---4---4----0---------|
A|--0--------0--------------------------------------------------------|
E|--------------------------------------------------------------------|


Chorus' are strummed and the bridge is single strummed.


There ya have it!
LLG♥ 

Leave a Reply

Your email address will not be published.