Alex & Sierra- ALMOST HOME Guitar Chords/Tab

Alex & Sierra- ALMOST HOME Guitar Chords/Tab

Live Love Guitar song request guitar chords for:  Anthony (Let me know what you think or if you have any suggestions!)


(Click/Tap anywhere on tab to start/stop scrolling)

STANDARD TUNING w/
CAPO ON 1

Intro/Beginning of verses-
    C                                      Gsus
e|--------------------0-------------------------------|
B|-----1---1---1-------1---------1---1--------0-------|
G|----0---0---0------0---0------0---0-----------0-----|
D|------0---2---3---3-----3-------0----2-----0---0----|
A|--3-------------------------3----------3------------|
E|-----------------------------------------3------3---|

End of verses- (This is all I could come up with!  It's
not exactly what they're doing, but does play along.)

   Dm         C         G         C
e|--1---1-----0-------------------0---0------|
B|--3----3----1--------3---3---3--1----------|
G|----2---2-----0---0----0---0------0--------|
D|--0-------------2---------------2----------|
A|------------3------------------------------|
E|---------------------3---------------------|

    C        F  Am G
e|--0---0--------------------------|
B|--1----1---1--1--3--3------------|
G|----0---0--2--2--0-0-0-----------|
D|--2-------------------0----------|
A|-----------3--0------------------|
E|-----------------3---------------|

Chorus- I strum it!  I couldn't figure a pattern out 
because my brain was fried from how long it had taken 
me to come up with the intro and verses!


         EADGBe
  Cadd2 [030010] 
Csus4/E [033010]  (C4/E -shortened to fit better)
Fmaj7/A [x03210]  (FM7/A -shortened...)
   Gsus [320010]

NOTE: "hC"= From Cadd2 hammer into the C chord by 
hammering the A string 2nd fret (Diagram below tab.)

STANDARD TUNING w/
CAPO ON 1
(*= one strum)

Intro-

C* Cadd2* C* C4/E* FM7/A
C* Cadd2* C* F* Gsus 


C    Cadd2 C  C4/E FM7/A
Lost in    in-no---cence
C    Cadd2 C  F     G 
Take this  fragile  heart 
Dm      C           G   C
We know where we've been
C         F*    Am* G 
All these miles to--gether


C    Cadd2 C  C4/E FM7/A
Fall in----to my   skin
C     Cadd2 C  F     G 
Crash in----to these arms 
Dm      C          G    C
We know where this ends
C      F* Am* G 
Fade into for-ever

              (*note)
            F   hC       G               Am
The road is wild,  we're holding on for life
       F   hC      Am             G
Like a child who's not afraid to cry
        F        C    G                  Am
We were escaping to a place we'll never know
             F       F*
Just you and me, love
F* C*  Gsus* FM7/A* C    C* 
We are al----most   home


C    Cadd2 C    C4/E FM7/A     
Lost in----side your eyes
      C     Cadd2 C  F    G        
Those brill-iant, dazzled stars
Dm      C     G    C
Show me every side
    C         F*   Am*    G     
The good, the bad, the better

               
            F   hC       G               Am
The road is wild,  we're holding on for life
       F   hC      Am             G
Like a child who's not afraid to cry
        F        C    G                  Am
We were escaping to a place we'll never know
             F       F*
Just you and me, love
F* C*  Gsus* FM7/A* C    C* 
We are al----most   home

Dm Am C G
Dm Am C G*

C*                 F 
Promise  you, I'll be
    C*                G 
The promise you can't keep
 F*      C*     G*   C*
'Til the end of time
    C*     Cadd2* C*   G  Am G   G*
And on the o------ther si-i--ide


            F  hC       G               Am
The road is wild, we're holding on for life
       F   hC      Am             G
Like a child who's not afraid to cry
        F        C    G                  Am
We were escaping to a place we'll never know
             F        F 
Just you and me, love
             Am       Am 
Just you and me, love
             F       F*
Just you and me, love
F* C*  Gsus* FM7/A* C* 
We are al----most   home



--------------------------------------
"hC" note:
         *   *
    F   C2   C   G.. Am...
e|--1-1--0---0---------------|
B|--1-1--1---1---------------|
G|--2-2--0---0---------------|
D|--3-3--0h2-2---------------|
A|--3-3--3---3---------------|
E|--1-1----------------------|

 

 

Have fun playing these guitar chords! LLG♥
(Click/tap anywhere above to stop scrolling)

Send in your Song Request for guitar chords today!

Subscribe!









One thought on “Alex & Sierra- ALMOST HOME Guitar Chords/Tab”

Leave a Reply

Your email address will not be published.